ISO-10303-21;
HEADER;
/* Generated by software containing ST-Developer
 * from STEP Tools, Inc. (www.steptools.com) 
 */

FILE_DESCRIPTION(
/* description */ ('Bundmutter M6'),
/* implementation_level */ '2;1');

FILE_NAME(
/* name */ '482523925.stp',
/* time_stamp */ '2025-01-08T11:52:32+01:00',
/* author */ ('mlippert'),
/* organization */ ('CADClick - KiM GmbH - www.kimweb.de'),
/* preprocessor_version */ 'ST-DEVELOPER v19.2',
/* originating_system */ 'Autodesk Inventor 2023',
/* authorisation */ 'unknown authorization');

FILE_SCHEMA (('AUTOMOTIVE_DESIGN { 1 0 10303 214 3 1 1 }'));
ENDSEC;

DATA;
#10=MECHANICAL_DESIGN_GEOMETRIC_PRESENTATION_REPRESENTATION('',(#13),#381);
#11=SHAPE_REPRESENTATION_RELATIONSHIP('SRR','None',#388,#12);
#12=ADVANCED_BREP_SHAPE_REPRESENTATION('',(#14),#380);
#13=STYLED_ITEM('',(#397),#14);
#14=MANIFOLD_SOLID_BREP('Volumenk\X\F6rper1',#213);
#15=(
BOUNDED_CURVE()
B_SPLINE_CURVE(2,(#333,#334,#335),.UNSPECIFIED.,.F.,.F.)
B_SPLINE_CURVE_WITH_KNOTS((3,3),(2.82296651917985,10.0278721029394),
 .UNSPECIFIED.)
CURVE()
GEOMETRIC_REPRESENTATION_ITEM()
RATIONAL_B_SPLINE_CURVE((1.20297151326657,1.38907185402382,1.20297151326657))
REPRESENTATION_ITEM('')
);
#16=(
BOUNDED_CURVE()
B_SPLINE_CURVE(2,(#339,#340,#341),.UNSPECIFIED.,.F.,.F.)
B_SPLINE_CURVE_WITH_KNOTS((3,3),(-1.13186039544976,-0.363351237946083),
 .UNSPECIFIED.)
CURVE()
GEOMETRIC_REPRESENTATION_ITEM()
RATIONAL_B_SPLINE_CURVE((1.27461339178929,1.47179676972449,1.27461339178929))
REPRESENTATION_ITEM('')
);
#17=(
BOUNDED_CURVE()
B_SPLINE_CURVE(2,(#345,#346,#347),.UNSPECIFIED.,.F.,.F.)
B_SPLINE_CURVE_WITH_KNOTS((3,3),(2.82296651917985,10.0278721029394),
 .UNSPECIFIED.)
CURVE()
GEOMETRIC_REPRESENTATION_ITEM()
RATIONAL_B_SPLINE_CURVE((1.20297151326658,1.38907185402382,1.20297151326658))
REPRESENTATION_ITEM('')
);
#18=(
BOUNDED_CURVE()
B_SPLINE_CURVE(2,(#351,#352,#353),.UNSPECIFIED.,.F.,.F.)
B_SPLINE_CURVE_WITH_KNOTS((3,3),(2.82296651917985,10.0278721029394),
 .UNSPECIFIED.)
CURVE()
GEOMETRIC_REPRESENTATION_ITEM()
RATIONAL_B_SPLINE_CURVE((1.20297151326658,1.38907185402382,1.20297151326658))
REPRESENTATION_ITEM('')
);
#19=(
BOUNDED_CURVE()
B_SPLINE_CURVE(2,(#359,#360,#361),.UNSPECIFIED.,.F.,.F.)
B_SPLINE_CURVE_WITH_KNOTS((3,3),(-1.13186039544976,-0.747605816697922),
 .UNSPECIFIED.)
CURVE()
GEOMETRIC_REPRESENTATION_ITEM()
RATIONAL_B_SPLINE_CURVE((1.27461339178929,1.37320508075689,1.37320508075689))
REPRESENTATION_ITEM('')
);
#20=(
BOUNDED_CURVE()
B_SPLINE_CURVE(2,(#362,#363,#364),.UNSPECIFIED.,.F.,.F.)
B_SPLINE_CURVE_WITH_KNOTS((3,3),(-0.747605816697922,-0.363351237946083),
 .UNSPECIFIED.)
CURVE()
GEOMETRIC_REPRESENTATION_ITEM()
RATIONAL_B_SPLINE_CURVE((1.37320508075689,1.37320508075689,1.27461339178929))
REPRESENTATION_ITEM('')
);
#21=(
BOUNDED_CURVE()
B_SPLINE_CURVE(2,(#369,#370,#371),.UNSPECIFIED.,.F.,.F.)
B_SPLINE_CURVE_WITH_KNOTS((3,3),(2.82296651917985,10.0278721029394),
 .UNSPECIFIED.)
CURVE()
GEOMETRIC_REPRESENTATION_ITEM()
RATIONAL_B_SPLINE_CURVE((1.20297151326658,1.38907185402382,1.20297151326657))
REPRESENTATION_ITEM('')
);
#22=FACE_BOUND('',#49,.T.);
#23=FACE_BOUND('',#58,.T.);
#24=PLANE('',#241);
#25=PLANE('',#242);
#26=PLANE('',#243);
#27=PLANE('',#244);
#28=PLANE('',#245);
#29=PLANE('',#246);
#30=PLANE('',#251);
#31=PLANE('',#252);
#32=CONICAL_SURFACE('',#239,3.5848562079907,0.785398163397448);
#33=CONICAL_SURFACE('',#247,7.10392720554236,1.0471975511966);
#34=FACE_OUTER_BOUND('',#46,.T.);
#35=FACE_OUTER_BOUND('',#47,.T.);
#36=FACE_OUTER_BOUND('',#48,.T.);
#37=FACE_OUTER_BOUND('',#50,.T.);
#38=FACE_OUTER_BOUND('',#51,.T.);
#39=FACE_OUTER_BOUND('',#52,.T.);
#40=FACE_OUTER_BOUND('',#53,.T.);
#41=FACE_OUTER_BOUND('',#54,.T.);
#42=FACE_OUTER_BOUND('',#55,.T.);
#43=FACE_OUTER_BOUND('',#56,.T.);
#44=FACE_OUTER_BOUND('',#57,.T.);
#45=FACE_OUTER_BOUND('',#59,.T.);
#46=EDGE_LOOP('',(#143,#144,#145,#146));
#47=EDGE_LOOP('',(#147,#148,#149,#150));
#48=EDGE_LOOP('',(#151,#152,#153,#154,#155,#156));
#49=EDGE_LOOP('',(#157));
#50=EDGE_LOOP('',(#158,#159,#160,#161));
#51=EDGE_LOOP('',(#162,#163,#164,#165));
#52=EDGE_LOOP('',(#166,#167,#168,#169));
#53=EDGE_LOOP('',(#170,#171,#172,#173));
#54=EDGE_LOOP('',(#174,#175,#176,#177,#178));
#55=EDGE_LOOP('',(#179,#180,#181,#182,#183,#184,#185,#186,#187,#188));
#56=EDGE_LOOP('',(#189,#190,#191,#192));
#57=EDGE_LOOP('',(#193));
#58=EDGE_LOOP('',(#194));
#59=EDGE_LOOP('',(#195,#196,#197,#198));
#60=LINE('',#310,#76);
#61=LINE('',#314,#77);
#62=LINE('',#319,#78);
#63=LINE('',#321,#79);
#64=LINE('',#323,#80);
#65=LINE('',#325,#81);
#66=LINE('',#327,#82);
#67=LINE('',#328,#83);
#68=LINE('',#331,#84);
#69=LINE('',#336,#85);
#70=LINE('',#342,#86);
#71=LINE('',#348,#87);
#72=LINE('',#354,#88);
#73=LINE('',#357,#89);
#74=LINE('',#368,#90);
#75=LINE('',#374,#91);
#76=VECTOR('',#259,3.);
#77=VECTOR('',#264,3.5848562079907);
#78=VECTOR('',#269,1.);
#79=VECTOR('',#270,1.);
#80=VECTOR('',#271,1.);
#81=VECTOR('',#272,1.);
#82=VECTOR('',#273,0.999999999999999);
#83=VECTOR('',#274,1.);
#84=VECTOR('',#277,1.);
#85=VECTOR('',#278,1.);
#86=VECTOR('',#281,1.);
#87=VECTOR('',#284,1.);
#88=VECTOR('',#287,1.);
#89=VECTOR('',#290,1.);
#90=VECTOR('',#295,7.10392720554236);
#91=VECTOR('',#298,7.);
#92=CIRCLE('',#237,3.);
#93=CIRCLE('',#238,3.);
#94=CIRCLE('',#240,3.5);
#95=CIRCLE('',#248,7.);
#96=CIRCLE('',#250,7.);
#97=VERTEX_POINT('',#307);
#98=VERTEX_POINT('',#309);
#99=VERTEX_POINT('',#313);
#100=VERTEX_POINT('',#317);
#101=VERTEX_POINT('',#318);
#102=VERTEX_POINT('',#320);
#103=VERTEX_POINT('',#322);
#104=VERTEX_POINT('',#324);
#105=VERTEX_POINT('',#326);
#106=VERTEX_POINT('',#330);
#107=VERTEX_POINT('',#332);
#108=VERTEX_POINT('',#338);
#109=VERTEX_POINT('',#344);
#110=VERTEX_POINT('',#350);
#111=VERTEX_POINT('',#356);
#112=VERTEX_POINT('',#358);
#113=VERTEX_POINT('',#366);
#114=VERTEX_POINT('',#373);
#115=EDGE_CURVE('',#97,#97,#92,.T.);
#116=EDGE_CURVE('',#97,#98,#60,.T.);
#117=EDGE_CURVE('',#98,#98,#93,.F.);
#118=EDGE_CURVE('',#97,#99,#61,.T.);
#119=EDGE_CURVE('',#99,#99,#94,.F.);
#120=EDGE_CURVE('',#100,#101,#62,.F.);
#121=EDGE_CURVE('',#100,#102,#63,.T.);
#122=EDGE_CURVE('',#102,#103,#64,.T.);
#123=EDGE_CURVE('',#104,#103,#65,.F.);
#124=EDGE_CURVE('',#104,#105,#66,.T.);
#125=EDGE_CURVE('',#105,#101,#67,.T.);
#126=EDGE_CURVE('',#105,#106,#68,.F.);
#127=EDGE_CURVE('',#107,#106,#15,.F.);
#128=EDGE_CURVE('',#101,#107,#69,.T.);
#129=EDGE_CURVE('',#108,#107,#16,.F.);
#130=EDGE_CURVE('',#100,#108,#70,.T.);
#131=EDGE_CURVE('',#109,#108,#17,.F.);
#132=EDGE_CURVE('',#109,#102,#71,.F.);
#133=EDGE_CURVE('',#110,#109,#18,.F.);
#134=EDGE_CURVE('',#103,#110,#72,.T.);
#135=EDGE_CURVE('',#111,#104,#73,.F.);
#136=EDGE_CURVE('',#110,#112,#19,.T.);
#137=EDGE_CURVE('',#112,#111,#20,.T.);
#138=EDGE_CURVE('',#113,#113,#95,.T.);
#139=EDGE_CURVE('',#113,#112,#74,.T.);
#140=EDGE_CURVE('',#106,#111,#21,.T.);
#141=EDGE_CURVE('',#113,#114,#75,.T.);
#142=EDGE_CURVE('',#114,#114,#96,.F.);
#143=ORIENTED_EDGE('',*,*,#115,.F.);
#144=ORIENTED_EDGE('',*,*,#116,.T.);
#145=ORIENTED_EDGE('',*,*,#117,.F.);
#146=ORIENTED_EDGE('',*,*,#116,.F.);
#147=ORIENTED_EDGE('',*,*,#115,.T.);
#148=ORIENTED_EDGE('',*,*,#118,.T.);
#149=ORIENTED_EDGE('',*,*,#119,.F.);
#150=ORIENTED_EDGE('',*,*,#118,.F.);
#151=ORIENTED_EDGE('',*,*,#120,.F.);
#152=ORIENTED_EDGE('',*,*,#121,.T.);
#153=ORIENTED_EDGE('',*,*,#122,.T.);
#154=ORIENTED_EDGE('',*,*,#123,.F.);
#155=ORIENTED_EDGE('',*,*,#124,.T.);
#156=ORIENTED_EDGE('',*,*,#125,.T.);
#157=ORIENTED_EDGE('',*,*,#119,.T.);
#158=ORIENTED_EDGE('',*,*,#125,.F.);
#159=ORIENTED_EDGE('',*,*,#126,.T.);
#160=ORIENTED_EDGE('',*,*,#127,.F.);
#161=ORIENTED_EDGE('',*,*,#128,.F.);
#162=ORIENTED_EDGE('',*,*,#120,.T.);
#163=ORIENTED_EDGE('',*,*,#128,.T.);
#164=ORIENTED_EDGE('',*,*,#129,.F.);
#165=ORIENTED_EDGE('',*,*,#130,.F.);
#166=ORIENTED_EDGE('',*,*,#121,.F.);
#167=ORIENTED_EDGE('',*,*,#130,.T.);
#168=ORIENTED_EDGE('',*,*,#131,.F.);
#169=ORIENTED_EDGE('',*,*,#132,.T.);
#170=ORIENTED_EDGE('',*,*,#122,.F.);
#171=ORIENTED_EDGE('',*,*,#132,.F.);
#172=ORIENTED_EDGE('',*,*,#133,.F.);
#173=ORIENTED_EDGE('',*,*,#134,.F.);
#174=ORIENTED_EDGE('',*,*,#135,.T.);
#175=ORIENTED_EDGE('',*,*,#123,.T.);
#176=ORIENTED_EDGE('',*,*,#134,.T.);
#177=ORIENTED_EDGE('',*,*,#136,.T.);
#178=ORIENTED_EDGE('',*,*,#137,.T.);
#179=ORIENTED_EDGE('',*,*,#138,.T.);
#180=ORIENTED_EDGE('',*,*,#139,.T.);
#181=ORIENTED_EDGE('',*,*,#136,.F.);
#182=ORIENTED_EDGE('',*,*,#133,.T.);
#183=ORIENTED_EDGE('',*,*,#131,.T.);
#184=ORIENTED_EDGE('',*,*,#129,.T.);
#185=ORIENTED_EDGE('',*,*,#127,.T.);
#186=ORIENTED_EDGE('',*,*,#140,.T.);
#187=ORIENTED_EDGE('',*,*,#137,.F.);
#188=ORIENTED_EDGE('',*,*,#139,.F.);
#189=ORIENTED_EDGE('',*,*,#138,.F.);
#190=ORIENTED_EDGE('',*,*,#141,.T.);
#191=ORIENTED_EDGE('',*,*,#142,.F.);
#192=ORIENTED_EDGE('',*,*,#141,.F.);
#193=ORIENTED_EDGE('',*,*,#142,.T.);
#194=ORIENTED_EDGE('',*,*,#117,.T.);
#195=ORIENTED_EDGE('',*,*,#124,.F.);
#196=ORIENTED_EDGE('',*,*,#135,.F.);
#197=ORIENTED_EDGE('',*,*,#140,.F.);
#198=ORIENTED_EDGE('',*,*,#126,.F.);
#199=CYLINDRICAL_SURFACE('',#236,3.);
#200=CYLINDRICAL_SURFACE('',#249,7.);
#201=ADVANCED_FACE('',(#34),#199,.F.);
#202=ADVANCED_FACE('',(#35),#32,.F.);
#203=ADVANCED_FACE('',(#36,#22),#24,.F.);
#204=ADVANCED_FACE('',(#37),#25,.T.);
#205=ADVANCED_FACE('',(#38),#26,.T.);
#206=ADVANCED_FACE('',(#39),#27,.T.);
#207=ADVANCED_FACE('',(#40),#28,.T.);
#208=ADVANCED_FACE('',(#41),#29,.T.);
#209=ADVANCED_FACE('',(#42),#33,.T.);
#210=ADVANCED_FACE('',(#43),#200,.T.);
#211=ADVANCED_FACE('',(#44,#23),#30,.T.);
#212=ADVANCED_FACE('',(#45),#31,.T.);
#213=CLOSED_SHELL('',(#201,#202,#203,#204,#205,#206,#207,#208,#209,#210,
#211,#212));
#214=DERIVED_UNIT_ELEMENT(#217,1.);
#215=DERIVED_UNIT_ELEMENT(#383,-3.);
#216=DIMENSIONAL_EXPONENTS(0.,1.,0.,0.,0.,0.,0.);
#217=(
CONVERSION_BASED_UNIT('gram',#219)
MASS_UNIT()
NAMED_UNIT(#216)
);
#218=(
MASS_UNIT()
NAMED_UNIT(*)
SI_UNIT(.KILO.,.GRAM.)
);
#219=MASS_MEASURE_WITH_UNIT(MASS_MEASURE(0.001),#218);
#220=DERIVED_UNIT((#214,#215));
#221=MEASURE_REPRESENTATION_ITEM('density measure',
POSITIVE_RATIO_MEASURE(7.85),#220);
#222=PROPERTY_DEFINITION_REPRESENTATION(#227,#224);
#223=PROPERTY_DEFINITION_REPRESENTATION(#228,#225);
#224=REPRESENTATION('material name',(#226),#380);
#225=REPRESENTATION('density',(#221),#380);
#226=DESCRIPTIVE_REPRESENTATION_ITEM('1.0037 (S235JR; St 37-2)',
'1.0037 (S235JR; St 37-2)');
#227=PROPERTY_DEFINITION('material property','material name',#390);
#228=PROPERTY_DEFINITION('material property','density of part',#390);
#229=DATE_TIME_ROLE('creation_date');
#230=APPLIED_DATE_AND_TIME_ASSIGNMENT(#231,#229,(#390));
#231=DATE_AND_TIME(#232,#233);
#232=CALENDAR_DATE(2017,12,5);
#233=LOCAL_TIME(0,0,0.,#234);
#234=COORDINATED_UNIVERSAL_TIME_OFFSET(0,0,.BEHIND.);
#235=AXIS2_PLACEMENT_3D('',#305,#253,#254);
#236=AXIS2_PLACEMENT_3D('',#306,#255,#256);
#237=AXIS2_PLACEMENT_3D('',#308,#257,#258);
#238=AXIS2_PLACEMENT_3D('',#311,#260,#261);
#239=AXIS2_PLACEMENT_3D('',#312,#262,#263);
#240=AXIS2_PLACEMENT_3D('',#315,#265,#266);
#241=AXIS2_PLACEMENT_3D('',#316,#267,#268);
#242=AXIS2_PLACEMENT_3D('',#329,#275,#276);
#243=AXIS2_PLACEMENT_3D('',#337,#279,#280);
#244=AXIS2_PLACEMENT_3D('',#343,#282,#283);
#245=AXIS2_PLACEMENT_3D('',#349,#285,#286);
#246=AXIS2_PLACEMENT_3D('',#355,#288,#289);
#247=AXIS2_PLACEMENT_3D('',#365,#291,#292);
#248=AXIS2_PLACEMENT_3D('',#367,#293,#294);
#249=AXIS2_PLACEMENT_3D('',#372,#296,#297);
#250=AXIS2_PLACEMENT_3D('',#375,#299,#300);
#251=AXIS2_PLACEMENT_3D('',#376,#301,#302);
#252=AXIS2_PLACEMENT_3D('',#377,#303,#304);
#253=DIRECTION('axis',(0.,0.,1.));
#254=DIRECTION('refdir',(1.,0.,0.));
#255=DIRECTION('center_axis',(0.,4.66965875689507E-16,1.));
#256=DIRECTION('ref_axis',(1.,0.,0.));
#257=DIRECTION('center_axis',(0.,4.66965875689507E-16,1.));
#258=DIRECTION('ref_axis',(1.,0.,0.));
#259=DIRECTION('',(0.,4.66965875689507E-16,1.));
#260=DIRECTION('center_axis',(0.,4.66965875689507E-16,1.));
#261=DIRECTION('ref_axis',(1.,0.,0.));
#262=DIRECTION('center_axis',(0.,-4.66965875689507E-16,-1.));
#263=DIRECTION('ref_axis',(1.,0.,0.));
#264=DIRECTION('',(-0.707106781186547,-2.43599131659216E-16,-0.707106781186548));
#265=DIRECTION('center_axis',(0.,-4.66965875689507E-16,-1.));
#266=DIRECTION('ref_axis',(1.,0.,0.));
#267=DIRECTION('center_axis',(0.,4.66965875689507E-16,1.));
#268=DIRECTION('ref_axis',(1.,0.,0.));
#269=DIRECTION('',(0.,-1.,4.66965875689507E-16));
#270=DIRECTION('',(-0.866025403784439,-0.5,2.33482937844753E-16));
#271=DIRECTION('',(-0.866025403784439,0.5,-2.33482937844753E-16));
#272=DIRECTION('',(0.,1.,-4.66965875689507E-16));
#273=DIRECTION('',(0.866025403784439,0.5,-2.33482937844753E-16));
#274=DIRECTION('',(0.866025403784439,-0.5,2.33482937844753E-16));
#275=DIRECTION('center_axis',(0.5,0.866025403784439,-4.04404311047559E-16));
#276=DIRECTION('ref_axis',(0.866025403784439,-0.5,2.33482937844753E-16));
#277=DIRECTION('',(0.,-4.66965875689507E-16,-1.));
#278=DIRECTION('',(0.,4.66965875689507E-16,1.));
#279=DIRECTION('center_axis',(1.,0.,0.));
#280=DIRECTION('ref_axis',(0.,-1.,4.66965875689507E-16));
#281=DIRECTION('',(0.,4.66965875689507E-16,1.));
#282=DIRECTION('center_axis',(0.5,-0.866025403784439,4.04404311047559E-16));
#283=DIRECTION('ref_axis',(-0.866025403784439,-0.5,2.33482937844753E-16));
#284=DIRECTION('',(0.,4.66965875689507E-16,1.));
#285=DIRECTION('center_axis',(-0.5,-0.866025403784439,4.04404311047559E-16));
#286=DIRECTION('ref_axis',(-0.866025403784439,0.5,-2.33482937844753E-16));
#287=DIRECTION('',(0.,4.66965875689507E-16,1.));
#288=DIRECTION('center_axis',(-1.,0.,0.));
#289=DIRECTION('ref_axis',(0.,1.,-4.66965875689507E-16));
#290=DIRECTION('',(0.,4.66965875689507E-16,1.));
#291=DIRECTION('center_axis',(0.,4.66965875689507E-16,1.));
#292=DIRECTION('ref_axis',(1.,0.,0.));
#293=DIRECTION('center_axis',(0.,-4.66965875689507E-16,-1.));
#294=DIRECTION('ref_axis',(1.,0.,0.));
#295=DIRECTION('',(0.86602540378444,-1.27425413972262E-16,-0.499999999999998));
#296=DIRECTION('center_axis',(0.,-4.66965875689507E-16,-1.));
#297=DIRECTION('ref_axis',(1.,0.,0.));
#298=DIRECTION('',(0.,4.66965875689507E-16,1.));
#299=DIRECTION('center_axis',(0.,-4.66965875689507E-16,-1.));
#300=DIRECTION('ref_axis',(1.,0.,0.));
#301=DIRECTION('center_axis',(0.,4.66965875689507E-16,1.));
#302=DIRECTION('ref_axis',(1.,0.,0.));
#303=DIRECTION('center_axis',(-0.5,0.866025403784439,-4.04404311047559E-16));
#304=DIRECTION('ref_axis',(0.866025403784439,0.5,-2.33482937844753E-16));
#305=CARTESIAN_POINT('',(0.,0.,0.));
#306=CARTESIAN_POINT('Origin',(0.,1.61702248813178E-14,16.));
#307=CARTESIAN_POINT('',(-3.,5.76306451424919E-15,-5.5));
#308=CARTESIAN_POINT('Origin',(0.,6.13045855399341E-15,-5.5));
#309=CARTESIAN_POINT('',(-3.,8.33137683054148E-15,0.));
#310=CARTESIAN_POINT('',(-3.,1.58028308415736E-14,16.));
#311=CARTESIAN_POINT('Origin',(0.,8.6987708702857E-15,0.));
#312=CARTESIAN_POINT('Origin',(0.,-7.63692709910366E-16,-6.08485620799071));
#313=CARTESIAN_POINT('',(-3.5,-2.95441376736723E-16,-6.00000000000001));
#314=CARTESIAN_POINT('',(-3.5848562079907,-3.24674441858433E-16,-6.08485620799071));
#315=CARTESIAN_POINT('Origin',(0.,-7.24067756438293E-16,-6.));
#316=CARTESIAN_POINT('Origin',(0.,-7.34763812293426E-16,-6.));
#317=CARTESIAN_POINT('',(5.,-2.88675134594813,-6.));
#318=CARTESIAN_POINT('',(5.,2.88675134594813,-6.));
#319=CARTESIAN_POINT('',(5.,1.44337567297407,-6.));
#320=CARTESIAN_POINT('',(1.99840144432528E-15,-5.77350269189626,-6.));
#321=CARTESIAN_POINT('',(3.75,-3.60843918243516,-6.));
#322=CARTESIAN_POINT('',(-5.,-2.88675134594813,-6.));
#323=CARTESIAN_POINT('',(-1.25,-5.05181485540922,-6.));
#324=CARTESIAN_POINT('',(-5.,2.88675134594813,-6.));
#325=CARTESIAN_POINT('',(-5.,-1.44337567297406,-6.));
#326=CARTESIAN_POINT('',(-1.77635683940025E-15,5.77350269189625,-6.));
#327=CARTESIAN_POINT('',(-3.75,3.60843918243516,-6.));
#328=CARTESIAN_POINT('',(1.25,5.05181485540922,-6.));
#329=CARTESIAN_POINT('Origin',(0.,5.77350269189625,-6.));
#330=CARTESIAN_POINT('',(-1.29206071576425E-15,5.77350269189626,-1.80811855099405));
#331=CARTESIAN_POINT('',(-1.77635683940025E-15,5.77350269189625,-6.));
#332=CARTESIAN_POINT('',(5.,2.88675134594813,-1.80811855099405));
#333=CARTESIAN_POINT('Ctrl Pts',(-1.66122092026833E-15,5.77350269189625,
-1.80811855099405));
#334=CARTESIAN_POINT('Ctrl Pts',(2.5,4.33012701892219,-2.64145188432739));
#335=CARTESIAN_POINT('Ctrl Pts',(5.,2.88675134594813,-1.80811855099405));
#336=CARTESIAN_POINT('',(5.,2.88675134594813,-6.));
#337=CARTESIAN_POINT('Origin',(5.,2.88675134594814,-6.));
#338=CARTESIAN_POINT('',(5.,-2.88675134594813,-1.80811855099405));
#339=CARTESIAN_POINT('Ctrl Pts',(5.,2.88675134594813,-1.80811855099405));
#340=CARTESIAN_POINT('Ctrl Pts',(5.,-5.55111512312578E-16,-2.64145188432738));
#341=CARTESIAN_POINT('Ctrl Pts',(5.,-2.88675134594813,-1.80811855099405));
#342=CARTESIAN_POINT('',(5.,-2.88675134594813,-6.));
#343=CARTESIAN_POINT('Origin',(5.,-2.88675134594813,-6.));
#344=CARTESIAN_POINT('',(1.10748061351222E-15,-5.77350269189626,-1.80811855099405));
#345=CARTESIAN_POINT('Ctrl Pts',(5.,-2.88675134594813,-1.80811855099405));
#346=CARTESIAN_POINT('Ctrl Pts',(2.5,-4.33012701892219,-2.64145188432739));
#347=CARTESIAN_POINT('Ctrl Pts',(-2.95328163603258E-15,-5.77350269189626,
-1.80811855099405));
#348=CARTESIAN_POINT('',(1.99840144432528E-15,-5.77350269189626,-6.));
#349=CARTESIAN_POINT('Origin',(0.,-5.77350269189626,-6.));
#350=CARTESIAN_POINT('',(-5.,-2.88675134594812,-1.80811855099405));
#351=CARTESIAN_POINT('Ctrl Pts',(1.84580102252036E-15,-5.77350269189626,
-1.80811855099405));
#352=CARTESIAN_POINT('Ctrl Pts',(-2.5,-4.33012701892219,-2.64145188432739));
#353=CARTESIAN_POINT('Ctrl Pts',(-5.,-2.88675134594812,-1.80811855099405));
#354=CARTESIAN_POINT('',(-5.,-2.88675134594813,-6.));
#355=CARTESIAN_POINT('Origin',(-5.,-2.88675134594813,-6.));
#356=CARTESIAN_POINT('',(-5.,2.88675134594813,-1.80811855099405));
#357=CARTESIAN_POINT('',(-5.,2.88675134594813,-6.));
#358=CARTESIAN_POINT('',(-5.,-1.85983141747508E-15,-2.25470053837925));
#359=CARTESIAN_POINT('Ctrl Pts',(-5.,-2.88675134594812,-1.80811855099405));
#360=CARTESIAN_POINT('Ctrl Pts',(-5.,-1.33974596215561,-2.25470053837925));
#361=CARTESIAN_POINT('Ctrl Pts',(-5.,-2.42547098066347E-15,-2.25470053837925));
#362=CARTESIAN_POINT('Ctrl Pts',(-5.,-2.42547098066347E-15,-2.25470053837925));
#363=CARTESIAN_POINT('Ctrl Pts',(-5.,1.33974596215561,-2.25470053837925));
#364=CARTESIAN_POINT('Ctrl Pts',(-5.,2.88675134594813,-1.80811855099405));
#365=CARTESIAN_POINT('Origin',(0.,-1.14643633345304E-16,-1.039997599904));
#366=CARTESIAN_POINT('',(-7.,1.61428168141701E-15,-1.1));
#367=CARTESIAN_POINT('Origin',(0.,1.65672055067734E-15,-1.1));
#368=CARTESIAN_POINT('',(-7.10392720554236,-9.84623804709629E-16,-1.039997599904));
#369=CARTESIAN_POINT('Ctrl Pts',(-2.0303811247724E-15,5.77350269189626,
-1.80811855099405));
#370=CARTESIAN_POINT('Ctrl Pts',(-2.5,4.33012701892219,-2.64145188432739));
#371=CARTESIAN_POINT('Ctrl Pts',(-5.,2.88675134594813,-1.80811855099405));
#372=CARTESIAN_POINT('Origin',(0.,-7.71502002908097E-16,-6.3));
#373=CARTESIAN_POINT('',(-7.,2.30478681490569E-15,6.66133814775094E-16));
#374=CARTESIAN_POINT('',(-7.,8.57507564950502E-17,-6.3));
#375=CARTESIAN_POINT('Origin',(0.,2.17038301393579E-15,0.));
#376=CARTESIAN_POINT('Origin',(0.,0.,0.));
#377=CARTESIAN_POINT('Origin',(-5.,2.88675134594813,-6.));
#378=UNCERTAINTY_MEASURE_WITH_UNIT(LENGTH_MEASURE(0.01),#382,
'DISTANCE_ACCURACY_VALUE',
'Maximum model space distance between geometric entities at asserted c
onnectivities');
#379=UNCERTAINTY_MEASURE_WITH_UNIT(LENGTH_MEASURE(0.01),#382,
'DISTANCE_ACCURACY_VALUE',
'Maximum model space distance between geometric entities at asserted c
onnectivities');
#380=(
GEOMETRIC_REPRESENTATION_CONTEXT(3)
GLOBAL_UNCERTAINTY_ASSIGNED_CONTEXT((#378))
GLOBAL_UNIT_ASSIGNED_CONTEXT((#382,#384,#385))
REPRESENTATION_CONTEXT('','3D')
);
#381=(
GEOMETRIC_REPRESENTATION_CONTEXT(3)
GLOBAL_UNCERTAINTY_ASSIGNED_CONTEXT((#379))
GLOBAL_UNIT_ASSIGNED_CONTEXT((#382,#384,#385))
REPRESENTATION_CONTEXT('','3D')
);
#382=(
LENGTH_UNIT()
NAMED_UNIT(*)
SI_UNIT(.MILLI.,.METRE.)
);
#383=(
LENGTH_UNIT()
NAMED_UNIT(*)
SI_UNIT(.CENTI.,.METRE.)
);
#384=(
NAMED_UNIT(*)
PLANE_ANGLE_UNIT()
SI_UNIT($,.RADIAN.)
);
#385=(
NAMED_UNIT(*)
SI_UNIT($,.STERADIAN.)
SOLID_ANGLE_UNIT()
);
#386=SHAPE_DEFINITION_REPRESENTATION(#387,#388);
#387=PRODUCT_DEFINITION_SHAPE('',$,#390);
#388=SHAPE_REPRESENTATION('',(#235),#380);
#389=PRODUCT_DEFINITION_CONTEXT('part definition',#394,'design');
#390=PRODUCT_DEFINITION('482523925_T001','482523925_T001',#391,#389);
#391=PRODUCT_DEFINITION_FORMATION(' NONE',$,#396);
#392=PRODUCT_RELATED_PRODUCT_CATEGORY('482523925_T001','482523925_T001',
(#396));
#393=APPLICATION_PROTOCOL_DEFINITION('international standard',
'automotive_design',2009,#394);
#394=APPLICATION_CONTEXT(
'Core Data for Automotive Mechanical Design Process');
#395=PRODUCT_CONTEXT('part definition',#394,'mechanical');
#396=PRODUCT('482523925_T001','482523925_T001','Bundmutter M6',(#395));
#397=PRESENTATION_STYLE_ASSIGNMENT((#398));
#398=SURFACE_STYLE_USAGE(.BOTH.,#401);
#399=SURFACE_STYLE_RENDERING_WITH_PROPERTIES($,#405,(#400));
#400=SURFACE_STYLE_TRANSPARENT(0.);
#401=SURFACE_SIDE_STYLE('',(#402,#399));
#402=SURFACE_STYLE_FILL_AREA(#403);
#403=FILL_AREA_STYLE('',(#404));
#404=FILL_AREA_STYLE_COLOUR('',#405);
#405=COLOUR_RGB('',0.63921568627451,0.63921568627451,0.662745098039216);
ENDSEC;
END-ISO-10303-21;
